Draft tab for "Thousand Fold" by Jeff Buckley. Tab, copyright Michael Harris, 26 March 2000. ------------------------------
Basic chord progression is as follows:

E ---4----6----7----9----2--->4----2--->4---------------
B ---4----6----7----9----2--->4----2--->4---------------
G ---4----6----7----9----2--->4----2--->4---------------
D ---4----6----7----9----2--->4----2--->4---------------
A ---X----X----X----X----0----X----0----X---------------
C#---3----5----6----8----1----0----1----0---------------

Note that in this progression (same above as below) 
the two highest strings are played softly if at all. 
The second-bottom string can be muted as indicated, or 
if you really want to play something there, play the fret 
one down from the bottom string in each case, as in 4/4/4/4/2/3 
for the first chord indicated, and so on.

E ---4----6----7----9----2--->4----2--->4---------------
B ---4----6----7----9----2--->4----2--->4---------------
G ---4----6----7----9----2--->4----2--->4---------------
D ---4----6----7----9----2--->4----2--->4---------------
A ---X----X----X----X----0----X----0----X---------------
C#---3----5----6----8----1----0----1----0---------------


There's a short "middle 8" section that cycles between the two 
following chords until the original progression starts up again.

E ---2----9----2-----------------------------------------
B ---2----9----2-----------------------------------------
G ---2----9----2-----------------------------------------
D ---2----9----2-----------------------------------------
A ---0----X----0-----------------------------------------
C#---1----8----1-----------------------------------------

Towards the end of the song it moves into something like this.

E ---9------0------9------0---------------------------------
B ---9------2------9------2---------------------------------
G ---9------1------9------1---------------------------------
D ---9------2------9------2---------------------------------
A ---X------X------X------X---------------------------------
C#---8------0------8------0---------------------------------

And then it resolves and finishes, in ways that ought to be 
apparent from the chords tabbed above.